Welcome
Login / Register




MK Ultra Cover / Tutorial Guitar Riff - Muse (With Tabs)

Thanks! Share it with your friends!

URL

You disliked this video. Thanks for the feedback!

Sorry, only registred users can create playlists.
URL


Added by Admin in Classic guitar lessons
47 Views

Description

Here is a close up in 3 step to the MK Ultra guitar riff by Muse. (The Tabs are below)

1- Normal Speed (With bass and metronome)
2- Very Slow
3- Slow (With metronome)


e|-------------------------------------
B|-------------------------------------
G|-10---9-10---9-10-----10-----
D|-----7-------7--------7-8----7-8
A|-------------------------------------
E|-------------------------------------

e|------------------------------------
B|------------------------------------
G|10-----10------10------10-----
D|----7-8----7-10----7-10----7-10
A|------------------------------------
E|------------------------------------

e|--------------------------------------
B|-8-------8--------8-----------10--
G|--------------------------------------
D|---9-10---9-10---9-10/12----10
A|--------------------------------------
E|--------------------------------------

e|--------------------------------------
B|----10---------11-------11-------
G|-----------------------10--------10
D|-12----10-12---12-------12----
A|--------------------------------------
E|--------------------------------------

e|-------------------------------------
B|-11----------10-------10--------
G|-----------10-------10-------10
D|----12/10-------10-------10---
A|------------------------------------
E|------------------------------------

e|------------------------------------
B|-8---------------------------------
G|---10-9----10-9----------------
D|----------11------11-8-7-------
A|------------------------------------
E|------------------------------------

Post your comment

Comments

Be the first to comment
RSS













Jazz Backing Tracks - practise your solos! | Improwizacja Jazzowa - podkładay muzyczne
stat4u